Zabranjeno Pusenje (zg) - Laku Noc Stari

Transkripcija: glavni


uvod Am

e---5-----------------5------------------
H---5--------5--------5------------------
G------------5---------------------------
D----5h7p5h7---7p5------5h7p5h7-----5----
A-------------------------------5h7------
E--5-----------------5-------------------

e---5------------------5-----------------
H---5--------5-5-------5-----------------
G------------5-5-------------------------
D----5h7p5h7----7p5------5h7p5h7-----5---
A--------------------------------5h7-----
E--5------------------5------------------


...Am-G-F  G Gadd9(353435) E  F-G-Am



        Am  Am-G-F            G         Gadd9
Laku noc stari i zaspi mirno po prvi put
          E           Esus4  E           F    G      Am
laku noc stari, vise ne ceka niko tvoje ruke i tvoj trud
laku noc stari, rukavice bijele od cesti navuci, pozdravi sve
laku noc stari, ti ides dalje i kad padnu zastave

Laku noc stari, ugasise tvoje duse dimnjake
laku noc stari, iskopase tvoga srca rudnike
laku noc stari i ne brini sve su tekme svrsene     Am   E
laku noc stari, ja sada idem, dobar je put ispred mene

Ref.
Am                 F
I kad sve saberes ispod svega tog
G                      Gadd9    E            Esus4
bilo je tesko, bilo je dobro, dobar je i bod
Am                     F
kad pogledas nas male ispod neba velikog
G                             E
bilo je tesko, bilo je dobro

Laku noc stari i zaspi mirno prvi put
laku noc stari, vise ne ceka niko tvoje ruke i tvoj trud
laku noc stari i ne brini sve su tekme svrsene
laku noc stari, ja sada idem, dobar je put ispred mene


solo.  Am F G  E E F G
                   ... E
----------------------------

Esus4 (022200)