Zabranjeno Pusenje (zg) - Pubertet

Transkripcija: Davor Tomic (tomicd2@tiger.uofs.edu)
Poslao       : Goran Maric (goranm_sa@hotmail.com)
Home         : http://academic.scranton.edu/student/TOMICD2


Uvod i pratnja kroz citavu pjesmu: 

   A 
e------------------------------------------------------------------------
H------------------------------------------------------------------------
G------------------------------------------------------------------------
D-------------5-----------------5-----------------5-----------------5----
A--7-7--5-7-----7-5---7-7--5-7----7-5---7-7--5-7----7-5---7-7-5-7-----7-5
E--5-5----------------5-5---------------5-5---------------5-5------------
-------------------------------------------------------------------------

A 
Od tebe sam uvijek mog'o u skoli prepisivat 
A 
Sa tobom sam uvijek mog'o doktora se igrat 
A 
Al' kad su posli da ti rastu guzovi i grudi 
E           D      C#        H 
Pronasla si pravog momka za tobom da ludi 


prelaz: 
   Esus2       Dsus2       C#sus2       Hsus2         A5 
e---------------------------------------------------------------------
H-----7-----------5------------4-----------2--------------------------
G-------9-----------7------------6-----------4------------------------
D---------9-----------7------------6-----------4----------------5-----
A--7-----------5-----------4------------2--------------7-7--5-5----7-5
E------------------------------------------------------5-5------------
----------------------------------------------------------------------

Ref. 
D                           A 
Ti si bila zena, ja sam bio dijete 
D                        A 
Zasto muski kasno udju u pubertet 
D                          A 
Ti si bila zena ja sam bio dijete 
E     D     C#    H       A 
Zasto muski kasno udju u pubertet,

Nisam znao da se takve stvari dese svakom 
Tebe i tvog dlakavoga gadjao sam prackom 
Shvatio sam tvoja paznja bijese samo fol 
Prije no sto spoznah ljubav, ja upozn'o sam bol 

Ref. 

Godine su prosle tek sad, mogu jesti sladje 
Ponekad u svoju "Mecku" strpam nesto mladje 
Mogu bit sa tobom sad kad nisi vise slatka 
Ista si k'o teta Neda iz pjesme Parnog Valjka 

Ref. 
   
   
***VERZIJA 2***
   
Transkripcija: ????
Poslao       : Marko (lade@bendroz.ca)
Home         : ????


  E7#9 riff
e|----------------|
H|----------------|
G|---7-7-----7----|
D|---6-6-7h9--9-7-|
A|---7-7----------|
E|---0-0----------|


     A(barre)                            E riff
     Od tebe sam uvijek mogo u skoli prepisivat
     sa tobom sam uvijek mogo doktora se igrat
     al kad su posli da ti rastu guzovi i grudi
     A    G       F       G             E riff 
     Pronasla si pravog momka za tobom da ludi
     
     Ti si bila zena ja sam bio dijete
     Zasto muski kasno udju u pubertet?
     
     
     Nisam znao takve stvari da se dese svakom
     tebe i tvog dlakavoga gadjao sam prackom
     Shvatio sam tvoja paznja bijese samo fol
     Prije no sto spoznah ljubav ja upozno sam bol
     
     Ti si bila zena ja sam bio dijete
     Zasto muski kasno udju u pubertet?
     
     
     Godine su prosle tad sad mogu jesti sladje
     Ponekad u svoju mecku strpam nesto mladje
     mogu bit sa tobom sad kad nisi vise mlada
     Ista si ko teta Neda iz pjesme Parnog Valjka
     
     Ti si bila zena ja sam bio dijete
     Zasto muski kasno udju u pubertet?