Zabranjeno Pusenje - Ibro Dirka

Transkripcija:Sale (goma@pop.transit.ru)
Home         :http://yurope.com/people/sen/The.Book.Of.Home/akordi


G             C
Kunem vam se, rahmetom mi dedinim
D       C           G           D
Iako se u tu svirku ne razumijem bas
   G                    C
Da nikad niko nije znao 'armoniku svirat
D        C     G          D
Kao mali Ibro, Ibro Dirka nas

Kada pocne dernek i kad on zasvira
Ne bi stigo reci ni bismillah
Vec bi lupo glavom i lomio bi case
Vec bi te Ibro bacio u sevdah

Al ubrzo za Ibru cuse ljudi sa estrade
I pocese njuskati po nasoj mahali
Svaki Ibri pice placa
Svaki deset prsta Ibrinje fali

Ibro poce pricati o parama o slavi
Mi ga odgovarasmo: Ibro ne budali
Ti si nesto drugo, ti armonikom ljecis bol
Na estradi sve je lazno, na estradi sve je fol

(Suplja prica uz pratnju Am \C \H \A Dm \C \H \A)

- Samo da ti kazem nesto za Ibru 
- Ja, ja 
- Dodje Mercedes po njega i on ode.
 Ode u 'armonicare i posta popularan. 
- Eno bolan, gledo sam sliku, s oba Halida se slik'o 
- Sa Brenom bio 
- Ma co'ece, on je vuko curu, nosila bedz da joj se 
zna prednja strana.
I sad evo hoda i s ovom i s onom 
- Kosjenka, daj nam dvije pive i rec bogati muzici 
malo tise
- Znam ja, dusevan covjek, ne da on da ga se daraci, 
da ga daracu oni...
- Ogulise ga 
- Bi'l ti dopustio? 
- Ali nije ni to. Ne daju mu bolan da sevdah svira. 
Raja trazi veselo. 
Ko ce slusat tudju muku 

   C                     G
Al jednog jutra udje Ibro u mahalu sam
Am                      D7
Isti Gari Kuper, sve je licilo na san
   C                        G
Na licu mu vise ne bi sjene koju tuga pravi
Am                        D7
Mahalu, sevdah, Ibro nije mogo da zaboravi

C
Ibro nije htio para
CG
Ibro ce vazda bit fukara
Am                    D7
I odma neki pocese da blate Ibrin lik
C                          CG
Al samo prava raja je znala u cemu je trik


Am                                D7
Nije ti Ibro, jarane nas, fukara, Ibro ti je 
defakto 
umjetnik.

Shvacas?

G C D C G


***VERZIJA 2***
Transkripcija: Branko Vukasovic (vukas@mindless.com)
               ICQ #: 31064875
Home         : http://www.tablature.co.yu


Solo:
                            G
E|------------------------|-7-----7-----7-----7----|
H|-------------------8--10|-8-----8-----8-----8----|
G|----------------7-------|------------------------|
D|------------------------|------------------------|
A|------------------------|------------------------|
E|------------------------|------------------------|

   C                        D7          C
E|------------------------|------------------------|
H|-10-8--8--10-8-----7--8-|-10----10----11----11---|
G|----------------7-------|-7-----7-----7-----7----|
D|------------------------|------------------------|
A|------------------------|------------------------|
E|------------------------|------------------------|

   G           D7           G
E|----------7-------------|-7-----7-----7-----7----|
H|-10-8--8-----10----8--10|-8-----8-----8-----8----|
G|-7--------------7-------|------------------------|
D|------------------------|------------------------|
A|------------------------|------------------------|
E|------------------------|------------------------|

   C                        D7          C
E|------------------------|------------------------|
H|-10-8--8--10-8-----7--8-|-10----10----11----11---|
G|----------------7-------|-7-----7-----7-----7----|
D|------------------------|------------------------|
A|------------------------|------------------------|
E|------------------------|------------------------|

   G           D7
E|------------------------|
H|-10-8--7--8-------------|
G|-7----------------------|
D|------------------------|
A|------------------------|
E|------------------------|

G             C
Kunem vam se, rahmetom mi dedinim
D7      C           G           D7
Iako se u tu svirku ne razumijem bas
   G                    C
Da nikad niko nije znao 'armoniku svirat
D7       C     G          D7
Kao mali Ibro, Ibro Dirka nas

Kada pocme dernek i kad on zasvira
Ne bi stigo reci ni bismillah
Vec bi lupo glavom i lomio bi case
Vec bi te Ibro bacio u sevdah

Solo sa pocetka

Al ubrzo za Ibru cuse ljudi sa estrade
I pocese njuskati po nasoj mahali
Svaki Ibri pice placa
Svaki deset prsta Ibrinih hvali

Ibro poce pricati o parama o slavi
Mi ga odgovarasmo Ibro ne budali
Ti si nesto drugo, ti armonikom ljecis bol
Na estradi sve je lazno, na estradi sve je fol

Samo da ti kazem nesto za Ibru - Ja, ja - Dode Mercedes po
njega i on ode.
Ode u armonicare i posta popularan. - Eno
bolan, gledo sam sliku, s oba Halida se sliko - Sa Brenom
bio - Ma co'ece,
on je vuko curu, nosila bedz da joj se zna
prednja strana. I sad evo hoda i s ovom i s onom -
Kosjenka, daj nam dvije
pive i rec bogati muzici malo tise - Znam ja,
dusevan covjek, ne da on da ga se daraci, da ga daracu oni
- Ogulise ga -
Bi'l ti dopustios - Ali nije ni to. Ne daju mu bolan
da sevdah svira. Raja trazi veselo. Tko ce slusat tudu muku
-

   C                     G
Al jednog jutra ude Ibro u mahalu sam
Am                      D7
Isti Gari Kuper, sve je licilo na san
   C                        G
Na licu mu vise ne bi sjene koju tuga pravi
Am                        D7
Mahalu, sevdah, Ibro nije mogo da zaboravi

C
Ibro nije htio para
CG
Ibro ce vazda bit fukara
Am                    D7
I odma neki pocese da blate Ibrin lik
C                          CG
Al samo prava raja je znala u cemu je trik
Am                                D7
Nije ti Ibro jarane nas fukara, Ibro ti je defakto
umjetnik.

Shvacass

Opet solo sa pocetka