Zabranjeno Pusenje - Jarani

Transkripcija: pipss@mail.ru
Home         : http://2akordi.net



INTRO + VERSE: -u slobodnoj interpretaciji-
 
Tuning : E A D G B E 	Time Signature: 4/4

 |E      |       |       |        |E      |       |       |        
|--------------------------------|--------------------------------|
|------------------------0-------|------------------------0-------|
|--------1-------2---------------|--------1-------2---------------|
|----2-------2-------------------|----2-------2-------------------|
|--------------------------------|--------------------------------|
|0-------------------------------|0-------------------------------|

 |A      |       |       |        |E      |       |       |        
|--------------------------------|--------------------------------|
|--------2-------3-------5-------|------------------------0-------|
|----2-------2-------------------|--------1-------2---------------|
|--------------------------------|----2-------2-------------------|
|0-------------------------------|--------------------------------|
|--------------------------------|0-------------------------------|


E                        E  
Pare pare pokrecu svijet politiku i nogomet
A                     E
Parama ja kupujem sve jahte,konje zamkove
    B      A       B          A
Al' upamti frajeru da ti pare ne mogu
B          A     E
Kupit' raju iskrenu.

Para vrti tamo gdje burgija ne moze
Parama mogu kupiti sve,politicare,novinare,sudije
Al' upamti frajeru,da ti pare ne mogu
Kupit raju iskrenu.


      G#m  C#m A    B          E
Dobre jara_ne  para kupit' ne moze
  G#m C#m A  B  E
jara__ne  ne moze
      G#m  C#m A    B          E
Dobre jara_ne  para kupit' ne moze
  G#m C#m A    B            E
jara__ne  para kupit' ne moze.

...itd