Zadruga - Ja Zivim Vu Malome Selu

Transkripcija: Zoran123 (zoran.cavuzic@kr.htnet.hr)


Uvod i solo:
      C        D        G   
E -----5-------7--------3-x------
H --------5s7----7------3-x------ 
G --5--------------7----4-x------ 3X
D ----------------------5-x------
A ----------------------5-x------
E ----------------------3-x------

     G  F# E
E ---3--2--0----0-------------
H ---3--2--0-------0---------- 
G ---4--3--1----------0-------
D ---5--4--2------------------
A ---5--4--2------------------
E ---3--2--0------------------

C           D      G
Ja zivim vu malomu selu
C           D        G
Gde asvalta taki jos nebu
C             D       G  F#  E   
Gde plodne su njive i zelene sume
  C        D       G
A krava se pase po brijegu                  

/solo/

I nebi ja drugde stel biti
Lijepe je iti po blatu
cez zelene sume i sarene brege
I saki dan videti kravu

/solo/

Ja zivim vu malomu selu
Ja zivim vu malomu selu
Ja zivim vu malomu selu
Ja zivim vu malomu selu
Ajoj