Zana - Dodirni Mi Kolena

Transkripcija: pipss@mail.ru
Home         : http://2akordi.net


C#m
Hej moja dusice izbaci bubice
                         B
iz svoje lepe lude plave glavice

ne budi dete
C#m
Obuci papuce, dodaj mi jastuce
                             B
nezno me zagrli i ponasaj se prirodno

D#m
Skuvaj mi kafu,napravi sendvic
G#
lepo ugosti i zadovolji me

Hej moja dusice, ostavi lutkice
koje te jure i stalno ti dosadjuju
ne budi dete
Kupi mi haljine, srebrene lancice
crvene maline i kartu do Amerike

Znamo se skoro vec deset dana
daj mi svoj auto i kljuc od stana

C#m           F#m          C#m
Hej, na sveze mleko mirise dan
      F#m           C#m
ptice pevaju na sav glas
      F#m
jutro njise vetar
  G#
dodirni mi kolena, to bih bas volela

Hej, plavo nebo zuri u stan
zuti leptir mazi moj vrat
jutro njise vetar
dodirni mi kolena, to bih bas volela

SOLO:
|C#m   |B     |D#m   |G#    | X4
|C#m   |F#m   |C#m   |F#m   |
|C#m   |F#m   |G#    |      | X2



***VERZIJA 2***
Transkripcija: Goran Stefanovic
Home         : http://yutablature.dzaba.com

C#m

C#m
Hej moja dusice izbaci bubice
                           B
Iz svoje lepe, lude, plave glavice, ne budi dete
C#m
Obuci papuce, dodaj mi jastuce,
                             B
Nezno me zagrli i ponasaj se prirodno
D#m
Skuvaj mi kafu, napravi sendvic
G#
Lepo ugosti i zadovolji me

Hej moja dusice ostavi lutkice
Koje te jure i stalno ti dosadjuju, ne budi dete
Kupi mi haljine, srebrne lancice
Crvene maline i kartu do Amerike
Znamo se skoro vec deset dana
Daj mi svoj auto i kljuc od stana

C#m           F#m          C#m
Hej, na sveze mleko mirise dan
      F#m           C#m
Ptice pevaju na sav glas
      F#m
Jutro njise vetar,
  G#
Dodirni mi kolena to bih bas volela

C#m        F#m         C#m
Hej, plavo nebo zuri u stan
     F#m             C#m
Zuti leptir mazi moj vrat
      F#m
Jutro njise vetar
  G#
Dodirni mi kolena, to bih bas volela

Hej moja dusice izbaci bubice
Iz svoje lepe, lude, plave glavice, ne budi dete
Obuci papuce, dodaj mi jastuce,
Nezno me zagrli i ponasaj se prirodno
Skuvaj mi kafu, napravi sendvic
Lepo ugosti i zadovolji me

Hej, na sveze mleko mirise dan
Ptice pevaju na sav glas
Jutro njise vetar,
Dodirni mi kolena to bih bas volela

Hej, plavo nebo zuri u stan
Zuti leptir mazi moj vrat
Jutro njise vetar
Dodirni mi kolena, to bih bas volela


[Solo na klavijaturi preradjen za gitaru]
    Cm                 B                  D#m                G#
    |        |         |       |          |        |         |        |
E---------------------16---------------|---------------14---17-----------------|
B---------16-----17--------------------|--------17-----------------------------|
G--------------------------------------|---------------------------------------|
D--------------------------------------|---------------------------------------|
A--------------------------------------|---------------------------------------|
E--------------------------------------|---------------------------------------|
    Cm                 B                  D#m                G#
    |        |         |       |          |        |         |        |
E---------------------16---------------|---------------14---17-----------------|
B---------16-----17--------------------|--------17-----------------------------|
G--------------------------------------|---------------------------------------|
D--------------------------------------|---------------------------------------|
A--------------------------------------|---------------------------------------|
E--------------------------------------|---------------------------------------|
    Cm                 B                  D#m                G#
    |        |         |        |           |        |         |        |
E---------------------16-----14----------|---------------14---17-----16-----14-|
B--14-----16-----17-----------------17---|-16-----17---------------------------|
G----------------------------------------|-------------------------------------|
D----------------------------------------|-------------------------------------|
A----------------------------------------|-------------------------------------|
E----------------------------------------|-------------------------------------|
    Cm                 B                  D#m                G#
    |        |         |        |           |        |         |        |
E---------------------16-----14----------|---------------14---17-----16-----14-|
B--14-----16-----17-----------------17---|-16-----17---------------------------|
G----------------------------------------|-------------------------------------|
D----------------------------------------|-------------------------------------|
A----------------------------------------|-------------------------------------|
E----------------------------------------|-------------------------------------|


[Solo na klavijaturi preradjen za gitaru]
   Cm              F#m(II)           Cm              F#m(II)
   |       |       |       |         |       |       |       |
E--------4-----5---2---------------|-------4-----5---2---------------|
B--2-------------------------------|-2-------------------------------|
G----------------------------------|---------------------------------|
D----------------------------------|---------------------------------|
A----------------------------------|---------------------------------|
E----------------------------------|---------------------------------|
   Cm              F#m(II)           G#
   |       |       |       |         |       |       |       |
E--------4-----5---2---------------|-4-------------------------------|
B--2-------------------------------|---------------------------------|
G----------------------------------|---------------------------------|
D----------------------------------|---------------------------------|
A----------------------------------|---------------------------------|
E----------------------------------|---------------------------------|
   Cm              F#m(II)           Cm              F#m(II)
   |       |       |       |         |       |       |       |
E--------4-----5---2---------------|-------4-----5---2---------------|
B--2-------------------------------|-2-------------------------------|
G----------------------------------|---------------------------------|
D----------------------------------|---------------------------------|
A----------------------------------|---------------------------------|
E----------------------------------|---------------------------------|
   Cm              F#m(II)           G#
   |       |       |       |         |       |       |       |
E--------4-----5---2---------------|-4-------------------------------|
B--2-------------------------------|---------------------------------|
G----------------------------------|---------------------------------|
D----------------------------------|---------------------------------|
A----------------------------------|---------------------------------|
E----------------------------------|---------------------------------|

Hej, na sveze mleko mirise dan
Ptice pevaju na sav glas
Jutro njise vetar,
Dodirni mi kolena to bih bas volela

Hej, plavo nebo zuri u stan
Zuti leptir mazi moj vrat
Jutro njise vetar
Dodirni mi kolena, to bih bas volela

Akordi:
C#m:     x 4 6 6 5 4
B:       x 2 4 4 4 2
D#m:     x x 1 3 4 2
G#:      4 6 6 5 4 4
F#m:     x x 4 6 7 5
F#m(II): 2 4 4 2 2 2