Zlatko Manojlovic - Jednoj Zeni

Transkripcija: sasayu1983 (sasayu1983@yahoo.com)


Tonalitet : Dm

b - bend
h - hammer on
p - pull of
/ - slide up
\ - slide down
9b9.5 - bend za 1/4 tona (sto kazu da zasmrdi)


probajte da stvar odsvirate sa dve gitare!iznenadicete se kako dobro zvuci!

uvodni deo (nije za gitaru ali moze)
e|---10-8-10--6-5-6--|-10-13-12-6-5-6-|-10-8-10-6-5-6-|-3---3--------------------------||
h|-------------------|----------------|---------------|---6---5------6----5----3-------||
g|-------------------|----------------|---------------|--------------------------------||
d|-------------------|----------------|---------------|--------------------------------||
a|-------------------|----------------|---------------|--------------------------------||
E|-------------------|----------------|---------------|--------------------------------||

strofa:
   Dm                   Gm              Dm                  Gm          Dm                  C
e|-----------------------------------|--------------------------------|-------------------------|
h|-----------------------------------|--------------------------------|-------------------------|
g|--7-9-9b9.5----10p9p7--------------|--7-9-9b9.5----10p9p7-----------|-7-9-10-10-10/12-10-9----|
d|-------------7--------10-10/12-----|------------7----------7-8/10-7-|----------------------10-|
a|-----------------------------------|--------------------------------|-------------------------|
E|-----------------------------------|--------------------------------|-------------------------|

    F                                  Gm                          Gm7   Dm      A7
e|-----------------------------------|------------------------------------------------||
h|-----------------------------------|----10-10h11-10---------------------------------||
g|--10-12-12/14-14\12-10-12/14-------|-12--------------12-10-10h12-10--9-7-7-7h9p7-6--||
d|-----------------------------------|------------------------------------------------||
a|-----------------------------------|------------------------------------------------||
E|-----------------------------------|------------------------------------------------||

refren:
  D                    G           A    D                   G           A
e|----------------------7-------------|----------------------7----------------|
h|-7-8-10-10-10---10-10---10-10--8-10-|-7-8-10-10-10---10-10---10--8p7--------|
g|------------------------------------|--------------------------------7/9----|
d|------------------------------------|---------------------------------------|
a|------------------------------------|---------------------------------------|
E|------------------------------------|---------------------------------------|
  D                   G           A                 G              A           G                D    Dm
e|----------------------7-------------|------8-10----------------------|------8-10---------------------|
h|-7-8-10-10-10---10-10---10-10--8-10-|-8/10------10-8--10-8-7-8--8/10-|-8/10------10-8--10-8-7-8-7----|
g|------------------------------------|--------------------------------|----------------------------(7)|
d|------------------------------------|--------------------------------|-------------------------------|
a|------------------------------------|--------------------------------|-------------------------------|
E|------------------------------------|--------------------------------|-------------------------------|

*Ovo je jako dobar instrumental i samim tim nema strofe refrene i sl. ali morao sam 
nekako da ih nazovem!Nadam se da ste shvatili sta sam hteo da kazem!Mislim da je
transkripcija skroz ok!Dajte komentare da znam da li je dobro!
Srecno!

***VERZIJA 2***
Transkripcija: sasayu1983 & Bookey (dopuna)
Poslao       : Bookey (dontask_scg@yahoo.com)


b - bend
r - release bend
h - hammer on             
p - pull of                      
/ - slide up                   
\ - slide down
~ - vibrato
+ - preband\release (Isto sto i 9b10r9, s tim sto ne sviras ono 9b
		     vec samo 10r9(+10r9) 
                   

  Dm                      Gm            Dm                     Gm
e|-----------------------------------|-----------------------------------|
h|-----------------------------------|-----------------------------------|
g|--7-9-9b9.5----+10r9-7-------------|--7-9-9b9.5----+10r9-7-------------|
d|-------------7--------10-10b12-----|------------7----------10-8b10r8~~-|
a|-----------------------------------|-----------------------------------|
E|-----------------------------------|-----------------------------------|

   Dm                    C          F
e|-------------------------------|-------------------------------|
h|-------------------------------|-------------------------------|
g|-7-9-9b10--9b10--10b12--10-9---|-10-12-12b14+14r12-10-12-12b14-|
d|---------------------------10--|-------------------------------|
a|-------------------------------|-------------------------------|
E|-------------------------------|-------------------------------|

    Gm                               Gm7   Dm      A7
e|-----------------------------------------------------||
h|-----------------------------------------------------||
g|-12-14-14h15-14h15p14p12-10-10h12-10--9-7-7--7b9r7-6-||
d|-----------------------------------------------------||
a|-----------------------------------------------------||
E|-----------------------------------------------------||

Drugi deo se svira isto, smao za oktavu vislje...

e|--10-12-12b12.5-------+13r12-10-------------|-- ...
h|-----------------10~~-------------13-13b15--|-- ...
g|--------------------------------------------|-- ... I tako dalje.
d|--------------------------------------------|-- ...
a|--------------------------------------------|-- ...
E|--------------------------------------------|-- ...

refren:
  D                    G           A      D                   G           A
e|----------------------7---------------|----------------------7------------------|
h|-7-8-10-10-10---10-10---10-10--8-10~~-|-7-8-10-10-10---10-10---10--8p7----------|
g|--------------------------------------|--------------------------------7-7/9~~--|
d|--------------------------------------|-----------------------------------------|
a|--------------------------------------|-----------------------------------------|
E|--------------------------------------|-----------------------------------------|
  D                   G           A                 G              A        
e|----------------------7-------------|------8-10--------------------------|
h|-7-8-10-10-10---10-10---10-10--8-10-|-8/10------10-8--10-8-7-8--8/10-----|
g|------------------------------------|------------------------------------|
d|------------------------------------|------------------------------------|
a|------------------------------------|------------------------------------|
E|------------------------------------|------------------------------------|

   G                     D      Dm
e|------8-10---------------------------||
h|-8/10-----10p8-8--10-8h10p8p7-8-7~~--||
g|-------------------------------------||
d|-------------------------------------||
a|-------------------------------------||
E|-------------------------------------||