Balasevic Djordje – Panonski Mornar – Akordi za gitaru

SLOVO B



Transkripcija: DrS   (drs@galeb.etf.bg.ac.yu)
Poslao       : Vlado (vlado.t@hotmail.com)
Home         : http://galeb.etf.bg.ac.yu/~drs/muzika/


INTRO: [D7] [G] [Cm] x2

[Cm]gledam banat [D#]srem i backu s [Bb]fruske gore [Cm]
[D#]gledam tako [Bb]a u dusi [D#]lom [D#] [G]
[Cm]tu je nekad [D#]kazu knjige [Bb]bilo more [Cm]
[G#]cekalo me [G#]pa pre[G]susi[Cm]lo

[Cm]rodeni sam [D#]moreplovac [Bb]k'o magelan [Cm]
[D#]il' jos bolje [Bb]k'o admiral [D#]kuk [D#] [G]
[Cm]u ravnici [D#]usred njiva [Bb]gubim elan [Cm]
[G#]nasukan u [G#]zitu [G]morski [Cm]vuk

mog mora [G7]nema i ne znam sta da [Cm]radim
moj strari [D#]kaze da ni [Bb]dunav nije [D#]los [D#] [G]
mog mora [G7]nema i ja zivim u [Cm]nadi
da mozda [G#]ipak negde [G#]sresce[G]mo se [Cm]jos

[Cm]zivot mi je [D#]zato gorak [Bb]kao tonik [Cm]
[D#]tuga moja [Bb]beskraj[D#]na [D#] [G]
[Cm]al' na srecu [D#]tu je mesec [Bb]svetionik [Cm]
[G#]vodi me u [G#]plave [G]vode [Cm]sna

o gde bas [G7]mene da tako nesto [Cm]snadje
ovo je [D#]prica i za [Bb]suze i za [D#]smeh [D#] [G]
poneki [G7]mornar mozda ostane bez [Cm]ladje
ali bez [G#]mora to je [G#]izu[G]zetan [Cm]peh 




***VERZIJA 2***


[Am]gledam banat [C]srem i backu s [G]fruske gore [Am]
[C]gledam tako [G]a u dusi lom [C] [E]
[Am]tu je nekad [C]kazu knjige [G]bilo more
[F]cekalo me [E7]pa presusi[Am]lo

............

mog mora [E]nema i ne znam sta da [Am]radim
moj strari [C]kaze da ni [G]dunav nije [C]los
[Am]mog mora [E]nema i ja zivim u [Am]nadi
da mozda [F]ipak negde [E]srescemo se [Am]jos




***VERZIJA 3***



C,Dis,B,Dis,B,Dis,D,C,Dis,B,G,Gis 
ref: G,C,Dis,B,Dis,D G,C,Dis,G,C  
       


***VERZIJA 4***

Transkripcija: Milan Sencanski

G Cm G Cm 
-----------------------------------------------------------------------
-----------------------------------------------------------------------
-----------7---5-4-7-5-5-----------7---5-4-5---------------------------
-5-6-6p5-4---4-----------5-6-6p5-4---4---------------------------------
-----------------------------------------------------------------------
-----------------------------------------------------------------------

------------10---8-7-10-8-8-----------10---8-7-8-----------------------
--8-9-9p8-7----7------------8-9-9p8-7----7-----------------------------
-----------------------------------------------------------------------
-----------------------------------------------------------------------
-----------------------------------------------------------------------
-----------------------------------------------------------------------

Cm            D#              A#
Gledam Banat, Srem i Backu, s' Fruske gore.
D#           A#        D#  G
Gledam tako, a u dusi lom.
Cm            D#          A#
Tu je nekad, kazu knjige, bilo more,
Cm         G        Cm
cekalo me, pa presusilo.

Rodjeni sam moreplovac, k'o Magelan,
il' jos bolje k'o admiral Kuk.
U ravnici usred njiva, gubim elan,
nasukan u zitu morski vuk.

refren:
--------------------------------15---18--15-------------------------
--15-16-18--16--15-13-15-16--18--------------15-16-18--16--15-13-15-
--------------------------------------------------------------------
--------------------------------------------------------------------
--------------------------------------------------------------------
--------------------------------------------------------------------
..nema i ne znam....... 

------------------------------
-16-16-16-16-16-16-15-13-12-13
------------------------------
------------------------------
------------------------------
------------------------------

Cm       G                      Cm
Mog mora nema i ne znam sta da radim,
Cm         D#         A#         D#
moj stari kaze da ni Dunav nije los.
Cm       G                      Cm
Mog mora nema, al' ja zivim u nadi,
Cm           D#         G          Cm
da, mozda, ipak negde srescemo se jos.

Zivot mi je, zato, gorak kao tonik,
tuga moja bez kraja i dna.
Al' na srecu tu je mesec, svetionik,
vodi me kroz plave vode sna.

O, gde bas mene da tako nesto snadje.
Ovo je prica i za suze i za smeh.
Poneki mornar mozda ostane bez ladje,
ali bez mora to je izuzetan peh.

Mog mora nema i ne znam sta da radim,
moj stari kaze da ni Dunav nije los.
Mog mora nema al' ja zivim u nadi,
da mozda ipak negde srescemo se jos.

O, gde bas mene da tako nesto snadje.
Ovo je prica i za suze i za smeh.
Poneki mornar mozda ostane bez ladje,
ali bez mora to je izuzetan peh.

-------------------------------------------------8---------------------
----------------------------------------------------8------------------
-----------7---5-4-7-5-5-----------7---5-4-5---------------------------
-5-6-6p5-4---4-----------5-6-6p5-4---4---------------------------------
-----------------------------------------------------------------------
-----------------------------------------------------------------------

Ostali Akordi Od Autora
Aerodrom | Akt | Alisa | Alogia | Amajlija | Ambasadori | Angels Breath | Animatori | Arhangel | Arsen Dedić | Atentat | Atheist Rap | Atomsko Sklonište | Babe | Babies | Bajaga & Instruktori | Balašević Đorđe | Balkan | Bare Goran | Bebi Dol | Bebić Toma | Belan Neno | Belfast Food | Bezobrazno Zeleno | Bijele Strijele | Bijelo Dugme | Bjesovi | Block Out | Boa | Bolero | Bombaj Štampa | Books Of Knjige, The | Borislav Mitić | Bresković Brothers | Buldožer | Bulevar | Bušmani | Cod | Crna Udovica | Crno Perje | Crno Vino | Crvena Jabuka | Crveni Koralji | Cukić Dejan | Čutura | Dado Topić | Daleka Obala | Damir Urban | Darko Rundek | Đavoli | Davorin Popović | Debeli Precjednik | Deca Loših Muzičara | Dedić Arsen | Dejan Cukić | Del Arno Bend | Delča | Denis I Denis | Direktori | Divljan Vlada | Divlje Jagode | Divlji Anđeli | Dobrovoljno Pevačko Društvo | Đorđe Balašević | Đordje David & Fuzzbox | Drago Mlinarec | Drugi Način | Drugo Stanje | Đubrivo | Đura i Mornari | Dža ili Bu | Džukele | Ekatarina Velika - EKV | Električni Orgazam | Elvis J Kurtović | Emir I Frozen Camels | Erogene Zone | Eva Braun | Ex-Revolveri | Eyesburn | Familija | Film | Fit | Flare | Galija | Generacija 5 | Generacija Bez Budućnosti | Gibonni | Gino Banana | Goblini | Goran Bare i Plaćenici | Grupa 220 | Gustafi | Gužva u 16-tercu | Hakuna Matata | Hali Gali Halid | Haustor | Hladno Pivo | Idoli | Indexi | Inspektor Blaža I Kljunovi | Irina I Vi | Itd Bend | Jarboli | Jinx | Josipa Lisac | Jugosloveni | Jura Stublić | Jurica Pađen | Jutro | Kanda Kodža I Nebojša | Kawasaki 3p | Kazna za Uši | Kbo! | Kerber | Knock Out | Kojoti | Kolja I Smak Bijelog Dugmeta | Kongres | Konvoj | Košava | Kraljevski Apartman | Kristali | Ksenija | Kud Idijoti | Kuguars, The | Kurtović Elvis J | Lacni Franc | Laki Pingvini | Laufer | Leb i Sol | Letu Štuke | Lexington Bend | Lisac Josipa | Love Hunters | Macbeth | Majke | Mance | Mandić Oliver | Manojlović Zlatko | Marijan Ban | Massimo Savić | Memorija | Metak | Miladin Šobić | Miroslav Rus | Mitić Borislav | Mizar | Mladen Vojičić - Tifa | Mlinarec Drago | Montano Toni | Nbg | Negative | Neki To Vole Vruće | Nemoguće Vruće | Neno Belan | Nermin Puškar | Neverne Bebe | Night Shift | Nikola Pejaković | Nikola Vranjković | No Smoking Orchestra, The | Nola | Non Stop | Novembar | Obala, The | Obojeni Program | Ofsajd | Oktobar 1864 | Oliver Mandić | Opća Opasnost | Orthodox Celts | Oružjem Protiv Otmičara | Osmi Putnik | Osvajači | Pađen Band | Pankrti | Paraf | Parni Valjak | Partibrejkers | Patrola | Pejaković Nikola | Pekingška Patka | Piloti | Pips, Chips I Videoclips | Plejboj | Pop Mašina | Popcycle | Popović Davorin | Poslednja Igra Leptira | Presing | Prljavi Inspektor Blaža | Prljavo Kazalište | Protest | Psihomodo Pop | Punkt | Puškar Nermin | Rade Šerbedžija | Radnička Kontrola | Rambo Amadeus | Ramirez | Rani Mraz | Regata | Regina (sa) | Revolveri | Riblja Čorba | Riblje Pušenje | Rimtutituki | Ritam Nereda | Rundek Darko | Rus Miroslav | S Vremena Na Vreme | Šarlo Akrobata | Satan Panonski | Savić Massimo | Septica | Šerbedžija Rade | Six Pack | Skroz | Smak | Smf | SongKillers | Stakleno Zvono | Stampedo | Stefanovski Vlatko | Stijene | Straight Jackin' | Stublić Jura | Suncokreti | Sunshine | TBF, The Beat Fleet | Termiti | Tifa - Mladen Vojičić | Time | Tina | Točak R.M | Toma Bebić | Toni Montano | Topić Dado | Tragači | Trula Koalicija | Tutti Frutti Balkan Bend | U Škripcu | Urban Damir | Valentino | Vampiri | Van Gogh | Vatra | Videosex | Viktorija | Vještice | Vlada Divljan | Vlatko Stefanovski | Yammat | Yu Grupa | Yu Rock Misija | Za Jednu Noć | Zablujena Generacija | Zabranjeno Pušenje | Zabranjeno Pušenje (bg) | Zabranjeno Pušenje (zg) | Zadruga | Zaklonisce Prepeva | Zana | Zbogom Brus Li | Živo Blato | Zlatko Manojlović | Zlatni Prsti | Zoster | Zvijezde |