Ekatarina Velika – Ekv – Krug (bass) – Akordi za gitaru

SLOVO E



Transkripcija: Denis - Zitiste00@aol.com

Strofa:
g|------------------------------------
d|------------------------------------
a|----------------3-3-3-x-------------
e|--5-x-5-0-1-1-1-x----------3-3-3----

Refren: fig. 1
g|---------------------|--------------------
d|-----------------5-5-|--------------5-5---
a|-------5-5-7-7-------|------5-5-7-7-------
e|--6-6----------------|--6-6---------------

g|-------------------
d|-----5-5-------5-5-
a|-------------------
e|--3------x-3-------

Pa onda opet fig. 1, pa...

g|----------------------------
d|--3h5--3h5--3h5--3-5-3------
a|-----------------------5-3--    pa onda opet fig. 1, pa:
e|----------------------------

g|---------------------------------------------------------
d|---------------5-5-6-6-5-5-----------------------3-3-5-5-
a|------5-5-7-7---------------7-7-5-5------3-3-5-5---------
e|--6-6--------------------------------3-3-----------------

g|-------5-5-7-7-
d|--7-7----------
a|---------------
e|---------------

pa onda:
g|------------------
d|------------------
a|--0-0-5-6-7-------  par puta... i onda kraj....
e|-------------0-0--

kraj:
g|---------------------
d|---------------------
a|---12-10~~~---10-12--
e|---------------------



***VERZIJA 2***

Transkripcija: ???


Intro:
G:-|---|-|---|----|-------|----|-------|
D:-|---|-|---|----|-------|----|-------| 
A:0|0--|0|0--|---0|--0----|---0|--0----|
E:-|-3~|-|-3~|0-3-|0----3~|0-3-|0----3~|

Ovaj krug sam smislio ...         4x     
G:---------------------------------|     
D:---------------------------------|     
A:------------------3-3-3-3--------|   
E:5-5-5-5-0-1-1-1-1---------3-3-3-3|                              

Prelaz
Aha             
G:-------------|
D:----0-1-2----|
A:0~-0---------|
E:---------0-0-|

2. strofa;             
Kao da sam umoran ...             4x     
G:---------------------------------|     
D:---------------------------------|     
A:------------------3-3-3-3--------|   
E:5-5-5-5-0-1-1-1-1---------3-3-3-3|            

Prelaz

Refren
Kao ne, i kao da...  
G:---------------------------------------------------------------------------------------
D:----------------------------------------------0-1-3-3-1-0----0-1-3-3-1-0---------------
A:-----0-1-3-3-1-0----0-1-3-3-1-0-----------1-1-------------1-1--------------------------
E:1-1--------------1-1------------3-3-1-3-3---------------------------------3-1-3-1-3-1-3

G:----------------------------------------------------------------------------------------
D:----0-1-3-3-1-0-----0-1-3-3-1-0---------------0-1-3-3-1-0--3-2-1-0---------2-------2---2
A:1-1-------------1-1-----------------------1-1----------------------4-3-2-1---2---2---2--
E:--------------------------------3-3-1-3-3--------------------------------------4--------

Intro
1.strofa
Prelaz
Refren

Kraj                                            1x
G:------------------------------------------------|
D:------------------------------------------------|
A:--0-5-6-7--------0-5-6-7------12-10~~~---10-12--|
E:5---------0-0--5---------0-0--------------------|

Ko kaze da nije tacno, samo neka kaze, hehehe nema tu netacnog.


Ostali Akordi Od Autora

Guitar Pro Tablature

preuzimanje Preuzmi Tablaturu
Aerodrom | Akt | Alisa | Alogia | Amajlija | Ambasadori | Angels Breath | Animatori | Arhangel | Arsen Dedić | Atentat | Atheist Rap | Atomsko Sklonište | Babe | Babies | Bajaga & Instruktori | Balašević Đorđe | Balkan | Bare Goran | Bebi Dol | Bebić Toma | Belan Neno | Belfast Food | Bezobrazno Zeleno | Bijele Strijele | Bijelo Dugme | Bjesovi | Block Out | Boa | Bolero | Bombaj Štampa | Books Of Knjige, The | Borislav Mitić | Bresković Brothers | Buldožer | Bulevar | Bušmani | Cod | Crna Udovica | Crno Perje | Crno Vino | Crvena Jabuka | Crveni Koralji | Cukić Dejan | Čutura | Dado Topić | Daleka Obala | Damir Urban | Darko Rundek | Đavoli | Davorin Popović | Debeli Precjednik | Deca Loših Muzičara | Dedić Arsen | Dejan Cukić | Del Arno Bend | Delča | Denis I Denis | Direktori | Divljan Vlada | Divlje Jagode | Divlji Anđeli | Dobrovoljno Pevačko Društvo | Đorđe Balašević | Đordje David & Fuzzbox | Drago Mlinarec | Drugi Način | Drugo Stanje | Đubrivo | Đura i Mornari | Dža ili Bu | Džukele | Ekatarina Velika - EKV | Električni Orgazam | Elvis J Kurtović | Emir I Frozen Camels | Erogene Zone | Eva Braun | Ex-Revolveri | Eyesburn | Familija | Film | Fit | Flare | Galija | Generacija 5 | Generacija Bez Budućnosti | Gibonni | Gino Banana | Goblini | Goran Bare i Plaćenici | Grupa 220 | Gustafi | Gužva u 16-tercu | Hakuna Matata | Hali Gali Halid | Haustor | Hladno Pivo | Idoli | Indexi | Inspektor Blaža I Kljunovi | Irina I Vi | Itd Bend | Jarboli | Jinx | Josipa Lisac | Jugosloveni | Jura Stublić | Jurica Pađen | Jutro | Kanda Kodža I Nebojša | Kawasaki 3p | Kazna za Uši | Kbo! | Kerber | Knock Out | Kojoti | Kolja I Smak Bijelog Dugmeta | Kongres | Konvoj | Košava | Kraljevski Apartman | Kristali | Ksenija | Kud Idijoti | Kuguars, The | Kurtović Elvis J | Lacni Franc | Laki Pingvini | Laufer | Leb i Sol | Letu Štuke | Lexington Bend | Lisac Josipa | Love Hunters | Macbeth | Majke | Mance | Mandić Oliver | Manojlović Zlatko | Marijan Ban | Massimo Savić | Memorija | Metak | Miladin Šobić | Miroslav Rus | Mitić Borislav | Mizar | Mladen Vojičić - Tifa | Mlinarec Drago | Montano Toni | Nbg | Negative | Neki To Vole Vruće | Nemoguće Vruće | Neno Belan | Nermin Puškar | Neverne Bebe | Night Shift | Nikola Pejaković | Nikola Vranjković | No Smoking Orchestra, The | Nola | Non Stop | Novembar | Obala, The | Obojeni Program | Ofsajd | Oktobar 1864 | Oliver Mandić | Opća Opasnost | Orthodox Celts | Oružjem Protiv Otmičara | Osmi Putnik | Osvajači | Pađen Band | Pankrti | Paraf | Parni Valjak | Partibrejkers | Patrola | Pejaković Nikola | Pekingška Patka | Piloti | Pips, Chips I Videoclips | Plejboj | Pop Mašina | Popcycle | Popović Davorin | Poslednja Igra Leptira | Presing | Prljavi Inspektor Blaža | Prljavo Kazalište | Protest | Psihomodo Pop | Punkt | Puškar Nermin | Rade Šerbedžija | Radnička Kontrola | Rambo Amadeus | Ramirez | Rani Mraz | Regata | Regina (sa) | Revolveri | Riblja Čorba | Riblje Pušenje | Rimtutituki | Ritam Nereda | Rundek Darko | Rus Miroslav | S Vremena Na Vreme | Šarlo Akrobata | Satan Panonski | Savić Massimo | Septica | Šerbedžija Rade | Six Pack | Skroz | Smak | Smf | SongKillers | Stakleno Zvono | Stampedo | Stefanovski Vlatko | Stijene | Straight Jackin' | Stublić Jura | Suncokreti | Sunshine | TBF, The Beat Fleet | Termiti | Tifa - Mladen Vojičić | Time | Tina | Točak R.M | Toma Bebić | Toni Montano | Topić Dado | Tragači | Trula Koalicija | Tutti Frutti Balkan Bend | U Škripcu | Urban Damir | Valentino | Vampiri | Van Gogh | Vatra | Videosex | Viktorija | Vještice | Vlada Divljan | Vlatko Stefanovski | Yammat | Yu Grupa | Yu Rock Misija | Za Jednu Noć | Zablujena Generacija | Zabranjeno Pušenje | Zabranjeno Pušenje (bg) | Zabranjeno Pušenje (zg) | Zadruga | Zaklonisce Prepeva | Zana | Zbogom Brus Li | Živo Blato | Zlatko Manojlović | Zlatni Prsti | Zoster | Zvijezde |