Dado Topic – Za Koji Zivot Treba Da Se Rodim – Akordi za gitaru

SLOVO D



Transkripcija: Ljubisa Prica (lj_prica@hotmail.com)
Home         : http://2akordi.net


Intro:
E|-----------------------------0-------|
H|----0--------0--------0------0--0----|
G|---2-2-0----2-2-0----2-2-0---0----0--|
D|--2-----2--2-----2--2-----2--2-2-2-2-|
A|-0--------0--------0---------2-------|
E|-----------------------------0-------|


E|---------------------------------------------------------------------|
H|----0--------0---------0-------0-----0--------0---------0-------0----|
G|---2-2-0----0-0-0----1-------1------2-2-0----0-0------1-------1------|
D|--2-----2--2---2----2-2-----2-2----2-----2--2---2----2-2-----2-2-----|
A|-0-----------------2----2--2----2-0-----------------2----2--2----2---|
E|----------3-------0-------0----------------3-----3-0-------0---------|
                                     Za koji.. treba.. i koji..treba...

E------------------------------------0------------3--------------0-1-------|
H----0--------0---------0-------0----1------------0--------------0-1-------|
G---2-2-0----0-0------1-------1------2------------0--------------1-2-1-1-1-|
D--2-----2--2---2----2-2-----2-2-----2--2-0-------0--------------2-3-2-2-2-|
A-0-----------------2----2--2----2---0------3-2-0-2--2-3-2-----0-2-3-------|
E----------3-----3-0-------0---------0------------3---------3----0-1-------|
   I kojem.. treba.. I koju..treba...

E|-------0-1---------------------|
H|-------0-1---------------------|
G|-------1-2-1-1-1---------------|
D|-0-1-2-2-3-2-2-2-0-1-2---------|
A|-------2-3-------------3-2-0---|
E|-------0-1---------------------|

Am            G
Za koji zivot treba da se rodim
E
Za koji sudnji dan treba da zivim
Am           G
I kojem bogu treba da se molim
E                          Am  G  E
I koju zenu treba da volim ja

Za ciju ljubav trebam da sam srecan
Za ciju ranu treba da sam bol
Na cijem odru treba da svijeca
Za koju zenu treba da sam gol

          Am     Am/G D7/F#   F
        I nikada necu saznati to
            Am      Am/G  D7/F# F
	Kud vodi me put zivota  mog
           Am   Am/G     D7/F#    F      E   
	Za ciju volju se radja se zivi i mre

E|-------------------------|
H|-------------------------|
G|-------------------------| 2x
D|-------0-----------------|
A|-0-2-3---2-3-0-2---0-----|
E|-----------------3---1-0-|

E|-----------------------------------------------------0-1--------|
H|-----------------------------------------------------0-1--------|
G|-----------------------------------------------------1-2-1-1-1--|
D|-------0-----------------------------0---------------2-3-2-2-2--|
A|-0-2-3---2-3-0-2---0-----------0-2-3---2-3-0-2---0---2-3--------|
E|-----------------3---1-0-0-0-------------------3---1-0-1--------|

E|-------0-1---------------------|
H|-------0-1---------------------|
G|-------1-2-1-1-1---------------|
D|-0-1-2-2-3-2-2-2-0-1-2---------|
A|-------2-3-------------3-2-0---|
E|-------0-1---------------------|

Za cije nebo treba da sam duga
U cijoj tami treba da sam luc
Za koju pjesmu treba da sam tuga
U cijoj casi treba da sam zuc ja

Za koju jesen treba da sam zetva
Za koju sliku treba da sam kist
Za cije usne treba da sam kletva
Za koje grane treba da sam list
        

Ostali Akordi Od Autora
Aerodrom | Akt | Alisa | Alogia | Amajlija | Ambasadori | Angels Breath | Animatori | Arhangel | Arsen Dedić | Atentat | Atheist Rap | Atomsko Sklonište | Babe | Babies | Bajaga & Instruktori | Balašević Đorđe | Balkan | Bare Goran | Bebi Dol | Bebić Toma | Belan Neno | Belfast Food | Bezobrazno Zeleno | Bijele Strijele | Bijelo Dugme | Bjesovi | Block Out | Boa | Bolero | Bombaj Štampa | Books Of Knjige, The | Borislav Mitić | Bresković Brothers | Buldožer | Bulevar | Bušmani | Cod | Crna Udovica | Crno Perje | Crno Vino | Crvena Jabuka | Crveni Koralji | Cukić Dejan | Čutura | Dado Topić | Daleka Obala | Damir Urban | Darko Rundek | Đavoli | Davorin Popović | Debeli Precjednik | Deca Loših Muzičara | Dedić Arsen | Dejan Cukić | Del Arno Bend | Delča | Denis I Denis | Direktori | Divljan Vlada | Divlje Jagode | Divlji Anđeli | Dobrovoljno Pevačko Društvo | Đorđe Balašević | Đordje David & Fuzzbox | Drago Mlinarec | Drugi Način | Drugo Stanje | Đubrivo | Đura i Mornari | Dža ili Bu | Džukele | Ekatarina Velika - EKV | Električni Orgazam | Elvis J Kurtović | Emir I Frozen Camels | Erogene Zone | Eva Braun | Ex-Revolveri | Eyesburn | Familija | Film | Fit | Flare | Galija | Generacija 5 | Generacija Bez Budućnosti | Gibonni | Gino Banana | Goblini | Goran Bare i Plaćenici | Grupa 220 | Gustafi | Gužva u 16-tercu | Hakuna Matata | Hali Gali Halid | Haustor | Hladno Pivo | Idoli | Indexi | Inspektor Blaža I Kljunovi | Irina I Vi | Itd Bend | Jarboli | Jinx | Josipa Lisac | Jugosloveni | Jura Stublić | Jurica Pađen | Jutro | Kanda Kodža I Nebojša | Kawasaki 3p | Kazna za Uši | Kbo! | Kerber | Knock Out | Kojoti | Kolja I Smak Bijelog Dugmeta | Kongres | Konvoj | Košava | Kraljevski Apartman | Kristali | Ksenija | Kud Idijoti | Kuguars, The | Kurtović Elvis J | Lacni Franc | Laki Pingvini | Laufer | Leb i Sol | Letu Štuke | Lexington Bend | Lisac Josipa | Love Hunters | Macbeth | Majke | Mance | Mandić Oliver | Manojlović Zlatko | Marijan Ban | Massimo Savić | Memorija | Metak | Miladin Šobić | Miroslav Rus | Mitić Borislav | Mizar | Mladen Vojičić - Tifa | Mlinarec Drago | Montano Toni | Nbg | Negative | Neki To Vole Vruće | Nemoguće Vruće | Neno Belan | Nermin Puškar | Neverne Bebe | Night Shift | Nikola Pejaković | Nikola Vranjković | No Smoking Orchestra, The | Nola | Non Stop | Novembar | Obala, The | Obojeni Program | Ofsajd | Oktobar 1864 | Oliver Mandić | Opća Opasnost | Orthodox Celts | Oružjem Protiv Otmičara | Osmi Putnik | Osvajači | Pađen Band | Pankrti | Paraf | Parni Valjak | Partibrejkers | Patrola | Pejaković Nikola | Pekingška Patka | Piloti | Pips, Chips I Videoclips | Plejboj | Pop Mašina | Popcycle | Popović Davorin | Poslednja Igra Leptira | Presing | Prljavi Inspektor Blaža | Prljavo Kazalište | Protest | Psihomodo Pop | Punkt | Puškar Nermin | Rade Šerbedžija | Radnička Kontrola | Rambo Amadeus | Ramirez | Rani Mraz | Regata | Regina (sa) | Revolveri | Riblja Čorba | Riblje Pušenje | Rimtutituki | Ritam Nereda | Rundek Darko | Rus Miroslav | S Vremena Na Vreme | Šarlo Akrobata | Satan Panonski | Savić Massimo | Septica | Šerbedžija Rade | Six Pack | Skroz | Smak | Smf | SongKillers | Stakleno Zvono | Stampedo | Stefanovski Vlatko | Stijene | Straight Jackin' | Stublić Jura | Suncokreti | Sunshine | TBF, The Beat Fleet | Termiti | Tifa - Mladen Vojičić | Time | Tina | Točak R.M | Toma Bebić | Toni Montano | Topić Dado | Tragači | Trula Koalicija | Tutti Frutti Balkan Bend | U Škripcu | Urban Damir | Valentino | Vampiri | Van Gogh | Vatra | Videosex | Viktorija | Vještice | Vlada Divljan | Vlatko Stefanovski | Yammat | Yu Grupa | Yu Rock Misija | Za Jednu Noć | Zablujena Generacija | Zabranjeno Pušenje | Zabranjeno Pušenje (bg) | Zabranjeno Pušenje (zg) | Zadruga | Zaklonisce Prepeva | Zana | Zbogom Brus Li | Živo Blato | Zlatko Manojlović | Zlatni Prsti | Zoster | Zvijezde |