Ekatarina Velika – Ekv – Aut – Akordi za gitaru

SLOVO E



Transkripcija: nikola - np39918@fer.hr
Album        : Katarina II (1984.)


bass - intro
G-------------------------------------7-------|
D------------5---------------------------7----|
A---------------------------------------------|
E---------------------------------------------|

G---------------------------------------------|
D----5-5-5-5-5-5h7-5--------------------------|
A---------------------5h7--5p3----------------|
E-------------------------------3h5---3-------|

G---------------------------------------------|
D---------------------------------------------|
A--------3-3-3---3----5h7--5p3----------------|
E----3h5-------5----------------3h5---3-------|


gitara - intro
E---------------------------------------------|
B---------------------------------------------|
G---5-5-5-5-5-5-5-7-5-5-5-5-5-5-5-5-5-5-------| 3x
D----------------------------------7---7------|
A---------------------------------------------|
E---------------------------------------------|

E----------------------8-8-8-10---8-10--------|
B---------------------------------------------|
G---5-5-5-5-5-5-5-7---------------------------|
D---------------------------------------------|
A---------------------------------------------|
E---------------------------------------------|

Am   F
aut, aut-aut-aut
aut, aut-aut

Am       F
ona hoda sama kroz grad
Am              F
misli sve, sve sto misli da zna
Am          F
to je samo down
Am                F
to je ono sto se zove aut


Am   F    4x

F    G    8x


Am   F
aut, aut-aut-aut
aut, aut-aut
Am       F
ona hoda sama kroz mrak
Am                 F
misli sve, sve sto misli da zna
Am          F
to je samo down
Am               F
to je ono sto se zove aut


prijelaz(bass)
G----------------99-------------10----9------------|
D--------------------------------------------------|
A---6--5---/8--7----/6--5---5s8---7-7---7----------|
E--------------------------------------------------|

G----------------99--------------------------------|
D--------------------------------------------------|
A--/6--5---/8--7-----6--5---4-----4-3-----3--------|
E-----------------------------2-5-----1-4----------|


Bm   G
aut, aut-aut-aut
aut, aut-aut

aut, aut-aut-aut
aut, aut-aut

G  A

E---------------------------------------------|
B---------------------------------------------|
G---7-7-7h9-7h9------7-----7-----7-----7------|
D---------------7-7h9-7-7h9-7-7h9-7-7h9-------|
A---------------------------------------------|
E---------------------------------------------|

E---------------------------------------------|
B---------------------------------------------|
G---------------------------------------------|
D---9-7h9p7-7-9-7h9p7-9-7h9p7-9-7h9p7-9-7-----|
A----------------------------------------10---|
E------------------------------------------10-|

E------------------------------------------------------|
B---------------------------10h12-10h12-10h12-10h12-10h12p10h12p10h12p10h12h-|
G-7-7h9-7h9-7h9-7h9-7h9-7h9----------------------------|
D------------------------------------------------------|
A------------------------------------------------------|
E------------------------------------------------------|

Outro: Bm G

Ostali Akordi Od Autora

Guitar Pro Tablature

preuzimanje Preuzmi Tablaturu
Aerodrom | Akt | Alisa | Alogia | Amajlija | Ambasadori | Angels Breath | Animatori | Arhangel | Arsen Dedić | Atentat | Atheist Rap | Atomsko Sklonište | Babe | Babies | Bajaga & Instruktori | Balašević Đorđe | Balkan | Bare Goran | Bebi Dol | Bebić Toma | Belan Neno | Belfast Food | Bezobrazno Zeleno | Bijele Strijele | Bijelo Dugme | Bjesovi | Block Out | Boa | Bolero | Bombaj Štampa | Books Of Knjige, The | Borislav Mitić | Bresković Brothers | Buldožer | Bulevar | Bušmani | Cod | Crna Udovica | Crno Perje | Crno Vino | Crvena Jabuka | Crveni Koralji | Cukić Dejan | Čutura | Dado Topić | Daleka Obala | Damir Urban | Darko Rundek | Đavoli | Davorin Popović | Debeli Precjednik | Deca Loših Muzičara | Dedić Arsen | Dejan Cukić | Del Arno Bend | Delča | Denis I Denis | Direktori | Divljan Vlada | Divlje Jagode | Divlji Anđeli | Dobrovoljno Pevačko Društvo | Đorđe Balašević | Đordje David & Fuzzbox | Drago Mlinarec | Drugi Način | Drugo Stanje | Đubrivo | Đura i Mornari | Dža ili Bu | Džukele | Ekatarina Velika - EKV | Električni Orgazam | Elvis J Kurtović | Emir I Frozen Camels | Erogene Zone | Eva Braun | Ex-Revolveri | Eyesburn | Familija | Film | Fit | Flare | Galija | Generacija 5 | Generacija Bez Budućnosti | Gibonni | Gino Banana | Goblini | Goran Bare i Plaćenici | Grupa 220 | Gustafi | Gužva u 16-tercu | Hakuna Matata | Hali Gali Halid | Haustor | Hladno Pivo | Idoli | Indexi | Inspektor Blaža I Kljunovi | Irina I Vi | Itd Bend | Jarboli | Jinx | Josipa Lisac | Jugosloveni | Jura Stublić | Jurica Pađen | Jutro | Kanda Kodža I Nebojša | Kawasaki 3p | Kazna za Uši | Kbo! | Kerber | Knock Out | Kojoti | Kolja I Smak Bijelog Dugmeta | Kongres | Konvoj | Košava | Kraljevski Apartman | Kristali | Ksenija | Kud Idijoti | Kuguars, The | Kurtović Elvis J | Lacni Franc | Laki Pingvini | Laufer | Leb i Sol | Letu Štuke | Lexington Bend | Lisac Josipa | Love Hunters | Macbeth | Majke | Mance | Mandić Oliver | Manojlović Zlatko | Marijan Ban | Massimo Savić | Memorija | Metak | Miladin Šobić | Miroslav Rus | Mitić Borislav | Mizar | Mladen Vojičić - Tifa | Mlinarec Drago | Montano Toni | Nbg | Negative | Neki To Vole Vruće | Nemoguće Vruće | Neno Belan | Nermin Puškar | Neverne Bebe | Night Shift | Nikola Pejaković | Nikola Vranjković | No Smoking Orchestra, The | Nola | Non Stop | Novembar | Obala, The | Obojeni Program | Ofsajd | Oktobar 1864 | Oliver Mandić | Opća Opasnost | Orthodox Celts | Oružjem Protiv Otmičara | Osmi Putnik | Osvajači | Pađen Band | Pankrti | Paraf | Parni Valjak | Partibrejkers | Patrola | Pejaković Nikola | Pekingška Patka | Piloti | Pips, Chips I Videoclips | Plejboj | Pop Mašina | Popcycle | Popović Davorin | Poslednja Igra Leptira | Presing | Prljavi Inspektor Blaža | Prljavo Kazalište | Protest | Psihomodo Pop | Punkt | Puškar Nermin | Rade Šerbedžija | Radnička Kontrola | Rambo Amadeus | Ramirez | Rani Mraz | Regata | Regina (sa) | Revolveri | Riblja Čorba | Riblje Pušenje | Rimtutituki | Ritam Nereda | Rundek Darko | Rus Miroslav | S Vremena Na Vreme | Šarlo Akrobata | Satan Panonski | Savić Massimo | Septica | Šerbedžija Rade | Six Pack | Skroz | Smak | Smf | SongKillers | Stakleno Zvono | Stampedo | Stefanovski Vlatko | Stijene | Straight Jackin' | Stublić Jura | Suncokreti | Sunshine | TBF, The Beat Fleet | Termiti | Tifa - Mladen Vojičić | Time | Tina | Točak R.M | Toma Bebić | Toni Montano | Topić Dado | Tragači | Trula Koalicija | Tutti Frutti Balkan Bend | U Škripcu | Urban Damir | Valentino | Vampiri | Van Gogh | Vatra | Videosex | Viktorija | Vještice | Vlada Divljan | Vlatko Stefanovski | Yammat | Yu Grupa | Yu Rock Misija | Za Jednu Noć | Zablujena Generacija | Zabranjeno Pušenje | Zabranjeno Pušenje (bg) | Zabranjeno Pušenje (zg) | Zadruga | Zaklonisce Prepeva | Zana | Zbogom Brus Li | Živo Blato | Zlatko Manojlović | Zlatni Prsti | Zoster | Zvijezde |